  0
SECTION
  2
ENTITIES
  0
ARC
  8
0
 10
216.46981
 20
91.434941
 40
262.565597
 50
89.88396
 51
110.0648
  0
ARC
  8
0
 10
200.495513
 20
137.567814
 40
213.753827
 50
110.285308
 51
137.888775
  0
ARC
  8
0
 10
154.925235
 20
174.902058
 40
154.938904
 50
136.830379
 51
179.224176
  0
ARC
  8
0
 10
154.925235
 20
179.097888
 40
154.938904
 50
180.775824
 51
215.483671
  0
ARC
  8
0
 10
200.495513
 20
216.432133
 40
213.753827
 50
216.542067
 51
249.714692
  0
ARC
  8
0
 10
216.46981
 20
262.565006
 40
262.565597
 50
249.9352
 51
270.11604
  0
ARC
  8
0
 10
217.533351
 20
262.565006
 40
262.565597
 50
269.88396
 51
288.133774
  0
ARC
  8
0
 10
233.507648
 20
216.432133
 40
213.753827
 50
287.913266
 51
317.888775
  0
ARC
  8
0
 10
279.077926
 20
179.097888
 40
154.938904
 50
316.830379
 51
359.224176
  0
ARC
  8
0
 10
279.077926
 20
174.902058
 40
154.938904
 50
0.775824
 51
43.169625
  0
ARC
  8
0
 10
233.515979
 20
137.577266
 40
213.741308
 50
42.110845
 51
69.770733
  0
ARC
  8
0
 10
217.533351
 20
91.434941
 40
262.565597
 50
69.97983
 51
90.11604
  0
ENDSEC
  0
EOF
